Give Kudos?
Are you sure you want to give kudos to PhoenixMandolin?

Add To Songbook?
Are you sure you want to add this song to your songbook?


2,681 bands | 34,877 songs
Search: Register FREE! | Login
Browse Songs:
Browse Bands:
Tool Panel
Discuss This Song

1 2 3 4 5





Brad Paisley - Then (Tab)
Album: American Saturday Night (2009)
Submitter: PhoenixMandolin (5) on 3/19/09 1 comment
Month Views: 12 | Total Views: 17,657
Moderator: Ray Terry | Report This Song?
Song Tools

Comment

Songbook

Kudos

Show Chords

Print

INTRO LICK:

E---------------------------------
B---8-----------------------------
G-----9p7----7b9---9\7------------
D---------10----------------------
A---------------------------------
E---------------------------------


VERSE 2 LICKS

E------------------------------------
B------8-----------------------------
G--------9p7----7b9------------------
D--10--------10----------------------
A------------------------------------
E------------------------------------

E----------------------------------------------------------------
B------5------------------------13-13-13\12-x-12-12\10-x-10\8----
G----------7b9-7\5-----------------------------------------------
D----5-----------------------------------------------------------
A----------------------------------------------------------------
E----------------------------------------------------------------


E------------------------------------------------------------
B---------------------6/8---8\6------------------------------
G--------0h2----------5/7---7\5--------------------------5---
D------0--------------3/5---5\3-------------------3------5---
A----2--------------------------------------3-3h5--------3---
E--3------------------------------------1h3---------3--------

I'm trying my best to tab out the solo but I can't promise anything.
I have the first little part of it but I don't want to submit it 
till I can get more of the solo.

Hope these licks help out :)

 Comments (click here to add a non-facebook comment)
I have to say I'm very impressed. that was a great job!
-Stempdog218 | 3/19/2009
Home | FAQs | Privacy | Terms | Advertise | Contact
Top 100 Tab Sites