Give Kudos?
Are you sure you want to give kudos to axehappy?

Add To Songbook?
Are you sure you want to add this song to your songbook?


2,629 bands | 34,421 songs
Search: Register FREE! | Login
Browse Songs:
Browse Bands:
Tool Panel
Discuss This Song

1 2 3 4 5





Brad Paisley - Celebrity (Solo)
Album: Mud on the Tires (2003)
Submitter: axehappy (116) on 4/5/03 6 comments
Month Views: 34 | Total Views: 12,582
Moderator: Ray Terry | Report This Song?
Song Tools

Comment

Songbook

Kudos

Show Chords

Print

Brad Paisley  -  Celebrity  (solo)

By axehappy  -  axehappy at countrytabs.com


*********************************************************************

\   =   slide down                      h   =   hammer-on

/   =   slide up                        bh  =   bend & hold

r   =   release bend                    p   =   pulloff

~   =   vibrato

*********************************************************************



E----------------------------------------5-------------------
B------------------------------------------8-5-5-------------
G--------------------0--7-7---------5-7bh-7-7---7r-p5--------
D--------0h2-2-2/3-2-7bh-7-7r-3-h5/7-7---------------7/14-14-
A-------------3----------------------------------------------
E--15\3-3----------------------------------------------------


E-----------12-15-13p12-------------------------------|
B--13-----13-----------13---------8----10-10----------|
G----12-12---------------14\10-7-9-9/12-----12/14~~---|
D-----------------------------------------------------|
A-----------------------------------------------------|
E-----------------------------------------------------|

 Comments (click here to add a non-facebook comment)
brads most famous guitar that he uses most often is the 68 pink
paisley fender telecaster but the one with the lightning design is a
2002 crook custom telestyle.
if anyone knows how i can get myself one of these please let me know.
i am a big paisley fan and would like to get a guitar like his.
other guitars he uses are the McEwen B bender, and i know he uses
some G benders.
I know enough about the B/G benders to know that they add alot and it
is difficult to play a piece where brad used a B/G bender if you dont
have one yourself.
I dont know a whole lot about them though and would wish someone to
tell me more if they can.
thanx
cntyotlw
-cntyotlw | 6/20/2003
Bill Crook does the guitar work for the guitar player in my band. (www.davidguthrieband.com) Check out Bill Crooks site, www.crookcustomguitars.com
-alight9 | 8/13/2003
hey man, your one of the best guitar players
out there no doubt about it. i mean to be
able to tab paisleys stuff.. hes insane and
i was wondering if you could put out a
soundbyte for this song that includes a slow
version.. if you could i would be forever
great ful
-guitarfreakbt50 | 6/6/2004
from someone inexperienced, can anyone throw out what key this is in so I can learn to mess in the scales over this song... thanks a million.. oh yeah... ax and logans are amazing
-brianhersh | 2/15/2005
It sounds perfect except for one thing.
I was watching him play that solo on CMT Crossroads, and this is how he played it.

E--------------------------
B-------------------3-3----
G-------------------2b--2r-
D--------0h2-2-2/3-2-------
A-------------3------------
E--15/3-3------------------

And so on and whatnot.
-sweethomealabam | 6/6/2005
Hey if anyone wants a B or G bender they run up a pretty high price. I e-mailed Bill Crook at his website for the price on the paisley guitars. He says without any benders it will go for around $1900/w/bender $2500

so it's gettin' up there.
-sweethomealabam | 6/11/2005
Home | FAQs | Privacy | Terms | Advertise | Contact
Top 100 Tab Sites