Give Kudos?
Are you sure you want to give kudos to Deleted Member?

Add To Songbook?
Are you sure you want to add this song to your songbook?


2,634 bands | 34,497 songs
Search: Register FREE! | Login
Browse Songs:
Browse Bands:
Tool Panel
Discuss This Song

1 2 3 4 5





Brad Paisley - Celebrity (Lead)
Album: Mud on the Tires (2003)
Submitter: Deleted Member (0) on 4/3/03 15 comments
Month Views: 23 | Total Views: 16,259
Sound Byte: Listen
Moderator: Ray Terry | Report This Song?
Song Tools

Comment

Songbook

Kudos

Show Chords

Print

This is Brads new single.............well I dont know for sure if its out 
yet.I am 15 and this is my first tab ever...................ive been a member 
of this site for a while. I mostly play brad Paisley lol. Hes awsome! i got to 
see Brad live at a festival for and hour. I would recomend anybody to go see 
Brad whenever they can. 

       -------------------------------------------------------------------------------------   
       -------------------------------------------------------------------------------------
       -------------------------------------------------------------------------------------
       ------------2----3--2b(3)r2--------------------2--3--2b(3)r2---------------------
       -----5b(7)----3------------3s5s3-------3--5b(7)--3-------------3s5s3-------3-3hold
       ----------------------------------3--5---------------------------------3--5---------

             C                         G           F           C
         Someday I'm gonna be famous, do I have talent? well no
                                              G           F     C 
         These days you dont really need it, Thanks to reality shows
                                          G             F       C
         Can't wait to date a supermodel, Can't wait to sue my dad
                                                     G                F      C
        Can't wait to wreck a ferrari, d---3-2---------------- On my way to re hab 
                                         a--------3s5-----------

  
                            C  F G                        C  F  G
        Cause when your a celeeeeeeeebrity,   its adios reaaaaality
                                                     
                                 Am                         F
       You can act just like a fool and people think yer cool just cause your on tv........
             
         e------------------------------
         b-----3-------1-------1-------
         g---0-------0-------0---------
         d-5----5--3----3--2---2--0---             
         a------------------------------
         e------------------------------


                        2nd verse licks
         lick 1   a------------------3-x-5b(7)-5
                  e--x-x-3-x-x-3h5--------------

        
         lick 2   e------------------------------
                  b------------------------------                                              
                  g---------------0-7s9-9hold--
                  d---------0-5s7---------------
                  a-----2s3---------------------
                  e-2s3-------------------------


         lick 3   e-15-15-12---------------------------------
                  b------------13-----------------------------
                  g---------------12---------------------------
                  d------------------14------------------------
                  a----------------------12sxxxxxxxxxxxxx
                  e-------------------------------------------2s3



         lick 4   e------------------------------------------------
                  b------------------------------------------------
                  g-------5--4p0--------0------------------------
                  d-0------------2p1p0h1-x-1p0-----------------
                  a --6h7--6---------------------3-2-3------------
                  e------------------------------------------------

                        lol well those are the licks.................at least 
the way i play em i pretty much learned em by ear. Heres the solo!!!!!!!!! or 
at least how i play it lol. Alota the bends are difficult though. probably 
because Brads got a g bender lol.

                Solo!!!!!!

e-x-------------------------------------------------5----------------
b-x-------------------------3-3-----------------------8-5----------
g-x--------------2b(3)hold-2-2-(3)r2-------5-7b9hold-7-7-7r(9)7-5-
d-x-0h2-2-2h3-2--------------------3~-5s7-5------------------------
a-x-------3------------------------------------------------------------
e-x--------------------------------------------------------------------

e----------8p0---0-15-13p12------------------------------------------
b-----------------------------15s13----------------------10-----------
g------9-9----s14------------------r(14)12-10---10-12b14--12b14-----
d-7s10----------------------------------------12-----------------------
a------------------------------------------------------------------------
e------------------------------------------------------------------------

 lol well there it is.................my first tab...............post some 
comments on here and tell me whatcha think. (how'd i do axe) 
lol..............somebody has already tabbed the chords and the lyrics on 
country tabs so i only did the first verse and chorus. thanks all!
 Comments (click here to add a non-facebook comment)
Man...I ain't heard the song!!
Someone's gotta email it to me...lol...
It LOOKS good though, nicely laid out and all
Not rating it until I've heard the song
though. :)
-axehappy | 4/3/2003
Nice tab. That is pretty much dead on.
-Ryan M | 4/4/2003
Just a couple of corrections, hope ya don't
mind... ;)

LICK 2

E-------------------|
B-------------------|
G-------------------|
D----------1-0-0h2--|
A-----2/3-x---------|
E--2/3--------------|

LICK 4

E---------------------------------|
B---------------------------------|
G-----5p0-4p0-----0---------------|
D------------5p0-3-0-1/2----------|
A--5/7----------4-------3-2-3-----|
E----------------------------1/3--|

Try those out...think you'll find they're a
little closer to the mark. :)
Haven't had a proper go at the solo, cos time
is short, but it looks good!!
VERY impressive first effort mate!! :)

-axehappy | 4/4/2003
Had a proper look at the solo now, and I'm
not gonna make any corrections...the notes
are all fine...I just played them in a
different way, so I've submitted my own
version of the solo as an alternative. :)
-axehappy | 4/5/2003
Wow I can't believe you're only 15!! Very impressive!!
-Shantel | 4/5/2003
yes, nicely done, buddy
-geetar81 | 5/4/2003
Nice job on the tab. I am a huge Paisley Fan also.
Our band gets to open a show for him this summer and hopefully we'll
get to meet him. For Abe Linc, check out www.Bradpaisley.com. They
have a section on his site about all his equipment and guitars

-backhomeboys | 5/18/2003
brads most famous guitar that he uses most often is the 68 pink paisley fender telecaster but the one with the lightning design is a 2002 crook custom telestyle. if anyone knows how i can get myself one of these please let me know. i am a big paisley fan and would like to get a guitar like his. other guitars he uses are the McEwen B bender, and i know he uses some G benders. I know enough about the B/G benders to know that they add alot and it is difficult to play a piece where brad used a B/G bender if you dont have one yourself. I dont know a whole lot about them though and would wish someone to tell me more if they can.
thanx
cntyotlw
-cntyotlw | 6/20/2003
A "G bender" is a telecaster that has been outfitted with a mechanism for bending the G string of the guitar. Think of it as a tremelo bar for only one string.. I use a bbender, and if you want a TOTAL country guitar, you should look into getting one, as some bends ala Brad Paisley and Brent Mason (Not to mention the Hellecasters!!) are pretty much impossible to pull off without the bending systems. I am not sure if the G bender uses the same system as the bbender, but on mine, the shoulder strap peg at the neck acts as a lever.. Just push the neck of the guitar toward the floor, and the b string gets stretched!
-bbender21 | 6/30/2003
I'd sure like to get a b or g bender but for now I'm enjoying the challenge of learning brad's stuff without one. Last time I talked to his guitar tech he told me that he's seen brad play all his stuff without one, so if brad can do it so can I! Well, I'll try at least. Celebrity is a great song and I'm stoked to hear the whole new album. I've already heard at least 3 songs off it, with Celebrity being one of them, "Mud On Your Tires" in concert and "Little Things" which he also plays in concert. It's an acoustic song that he played on Grand Ol Opry live the other night. Good stuff. Anyone heard any others?
-GuitarVB | 6/30/2003
Brad plays like a 1968 pink Fender Paisley telecaster...then he plays a few Crook custom paisley's.......look on his website and there is a link.....he has a blue one,black one,Maroon one,and pink one from there too....I looked into having a black one just like brad's and it was $1,600 with case and shipping and handling in the states.
-Seh17 | 7/2/2003
Brad plays like a 1968 pink Fender Paisley telecaster...then he plays a few Crook custom paisley's.......look on his website and there is a link.....he has a blue one,black one,Maroon one,and pink one from there too....I looked into having a black one just like brad's and it was $1,600 with case and shipping and handling in the states.
-Seh17 | 7/2/2003
I slow the fourth lick down and this is what I
got.

E------------------------------------------------
B------------------------------------------------
G------------5---4-----------0-------------------
D------------------5p4-----3---1h2---------------
A------5h6h7---6-------5p4---------3p2-3---------
E------------------------------------------------

This is really close, it sounds like the
open string is the g.

doctortele
-patrickp01 | 8/4/2003
the only thing I'm havin a problem with is actually the sound byte, it'd be really awesome if you'd have told what it is I'm listening too, cause I can't find out if you're doing the intro in segments or what, other than that...looks great!
-jtcoldfan | 4/12/2005
hey dude what about the main intro with the chords you forgot that

-Adam223 | 8/3/2005
Home | FAQs | Privacy | Terms | Advertise | Contact
Top 100 Tab Sites