Give Kudos?
Are you sure you want to give kudos to silverwings?

Add To Songbook?
Are you sure you want to add this song to your songbook?


2,629 bands | 34,421 songs
Search: Register FREE! | Login
Browse Songs:
Browse Bands:
Tool Panel
Discuss This Song

1 2 3 4 5





Brad Paisley - Celebrity (Intro)
Album: Mud on the Tires (2003)
Submitter: silverwings (0) on 8/30/03 11 comments
Month Views: 21 | Total Views: 11,093
Moderator: Ray Terry | Report This Song?
Song Tools

Comment

Songbook

Kudos

Show Chords

Print

This is my first tab so i hope it lines up right  i probably did it wrong but.....



----------------------------------------3--
---1--------------------1---------------0--
---0---------------0----0---------------0-
---2------3--2-----0----2-------3-2-----0-
--------3----------2----------3---------2--
-------------------3--------------------3-
 Comments (click here to add a non-facebook comment)

-silverwings | 8/31/2003
Sorry but I can't understand it.
-tobyngarth | 5/18/2004
nope, nothin wrong, you did it just fine!
sounds great! :) thanx!
-climbergirl | 6/15/2004
ahhhhhhhhhhh

-bigbellynick | 7/16/2004
sorry, nope not bad, good job
-bigbellynick | 7/16/2004
i couldnt match any part of that with the real song

-tonyjr09 | 2/3/2005
Thanks for your comment, Mark. I checked it out, and
it's definitely an A chord, not Am. I think that's
why the song sounds as good as it does, because
it mixes minor chords, with happier sounding majors.
As for your banjo tab, have you posted a request?
-danielcraggs | 7/26/2004
awesome!

-sweethomealabam | 3/17/2005
good job
-Keithurbandude | 5/29/2005
I don't understand it at all
-sean316 | 6/28/2005
good but try it like this and tell me what you think

----------------------------------------3-
---1--------------------1---------------0-
---0---------------0----0---------------0-
---0h2-2----3-2----0----0h2-2----3-2----0-
---------3---------2----------3---------2-
-------------------3--------------------3-

-orangeruffy | 7/29/2005
Home | FAQs | Privacy | Terms | Advertise | Contact
Top 100 Tab Sites