Give Kudos?
Are you sure you want to give kudos to play4u62?

Add To Songbook?
Are you sure you want to add this song to your songbook?


2,629 bands | 34,421 songs
Search: Register FREE! | Login
Browse Songs:
Browse Bands:
Tool Panel
Discuss This Song

1 2 3 4 5





Brad Paisley - Celebrity (intro) (Intro)
Album: Mud on the Tires (2003)
Submitter: play4u62 (0) on 4/11/06
Month Views: 19 | Total Views: 4,129
Moderator: Ray Terry | Report This Song?
Song Tools

Comment

Songbook

Kudos

Show Chords

Print

E |-------------------------------|----------------------------------|
  B |-------------------------------|----------------------------------|
  G |-------------------------------|----------------------------------|
  D |-----2--2-----3--2b3rb2--0-----|---------2--2-----3--2b3rb2--0----|
  A |--3--------3----------------3--|----0h3--------3----------------3-|
  E |-------------------------------|-3--------------------------------|

  E |-------------------------------|----------------------------------|
  B |-------------------------------|----------------------------------|
  G |-------------------------------|----------------------------------|
  D |-------------------------------|----------------------------------|
  A |-----0h3--3--------------------|----------------------------------|
  E |--3----------------------------|----------------------------------|
 Comments (click here to add a non-facebook comment)
Home | FAQs | Privacy | Terms | Advertise | Contact
Top 100 Tab Sites