Give Kudos?
Are you sure you want to give kudos to sweethomealabam?

Add To Songbook?
Are you sure you want to add this song to your songbook?


2,629 bands | 34,421 songs
Search: Register FREE! | Login
Browse Songs:
Browse Bands:
Tool Panel
Discuss This Song

1 2 3 4 5





Brad Paisley - Celebrity(every Lick, Solo And Chord) (Lead)
Album: Mud on the Tires (2003)
Submitter: sweethomealabam (4) on 4/17/05 2 comments
Month Views: 34 | Total Views: 10,424
Moderator: Ray Terry | Report This Song?
Song Tools

Comment

Songbook

Kudos

Show Chords

Print

O.K. this is my 4th Brad song I've submitted.
And thanks to Axehappy for the second solo
And the thing about this tab 
is that I listened to the song and tabbed what i heard
Some of it probably won't sound right to you
and that's probably because You're confused with what i
have on there and you don't think it goes with the song
but I played it with the CD and it sounded great to me

********************************************************************************
~=vibrato                 h=hammer-on                     /=slide up
b=bend                    r=release                       x=dead note
p=pull-off
********************************************************************************

C=x32010      
G=320033
F=133211      
Am=x02210
Em=022000

Intro:
E-----------------------
B-----------------------
G-----------------------
D-0h2-2-3-2-0-----------
A------3-----3/5~~-3---3
E-------------------3-5-
                           repeat

C                            G         F           C
Someday I'm gonna be famous, do I have talent well no
C                                    G         F       C
These days you don't really need it, thanks to reality shows
C       
Can't wait to date a supermodel
G             F      C
can't wait to sue my dad
C       
can't wait to wreck a ferrari
(D--3-2---------------)
(A------3/5~~~~~~~~~~~)
G     F      C
On my way to rehab

(A---5b-5r-3--)

(chorus)
C                 F         G
Cuz when your a cele-----brity
C           F       G
It's adios rea----lity
                        Am                      F
You can act just like a fool, People think your cool
                 G     F    Em    G
just cuz your on TV
C             F     G
I can throw a major fit
                    C        F      G
when my latte isn't just how I like it
                   Am                           F
They say I've gone insane, I'll blame it on the fame
                      G      F
The pressures that go with
Em           G
Being a celebrity

D-0h2-2---3-2-----------0h2-2---3-2-------------------------
A-------3-----3/5-----3-------3-----3/5---------------------
E-----------------3h5-------------------3b------------------

C
I'll get to cry to Barbara Walters
(A-------------3-5/7-5-----)
(E--3xx3xx3--5-------------)
                  F     C
When things don't go my way
(A------------3--5-)
(E--2/3-4/5--7-----)
C
And I get community service
(E-15-15/all the way down------)
(B-----------------------------)
(G-----------------------------)
(D-----------------------------)
(A------------------------3-3/5)
(E-----------------------------)
          F           C
No matter which law I break
(E----------------------------------)
(B----------------------------------)
(G------5---4p0--------0------------)
(D-0------------2p1p0h1-x-1p0-------)
(A--6h7---6-------------------3-2-3-)
(E----------------------------------)
C
I'll make the supermarket tabloids
G                 F      C
They'll write some awful stuff
C
But the more the run my name down
G           F          C
The more my price goes up

(Chorus 2)
C                 F        G
Cuz when your a cele----brity
             F     G
It's adios Re---ality 
                  Am 
No matter whatcha do
                    F                      G    F   Em  G
People think you're cool, just cuz your on TV
C          F      G      C
I can fall in and out of love
                    F      G      C
have marriages that barely last a month
                      Am
When they go down the drain
                     F
I'll blame it on the fame
                 G      F
Say it's just so tuff
Em       G
Bein a celebrity

(SOLO)

E------------------------------------------5----------------
B----------------------------------------------8--5-5-------
G--------------------0--7-----------5---7b---7---7----7r-5--
D---------0h2-2--3-2-7b---7r--3-5/7---7---------------------
A--------------3--------------------------------------------
E--15/3-3---------------------------------------------------

E------------------12-15-13p12------------------------------
B---------13----13-------------13------------8-------10--10-
G------------12-------------------14/10--7-9---9/12---------
D-7/14-14---------------------------------------------------
A-----------------------------------------------------------
E-----------------------------------------------------------

E-----------------------------------------------------------
B-----------------------------------------------------------
G--12/14----------------------------------------------------
D-----------------------------------------------------------
A-----------------------------------------------------------
E-----------------------------------------------------------

Bridge:
         F
So let's hitch up the wagons and head out west 
       C                      G
to the land of the fun in the sun
         F
We'll be real-world bachelor jackass millionaires
G
hey, hey hollywood
(Low E--4b-3-3--)
        C     F    G
Here we co---------me

(2nd solo)
E--8--8--8/----------8-------------------8----8-------------
B-10-10-10/-5-5------0-------2b-/--8--8--8-10-8-11b---------
G--9--9--9/-0-5---------7-7--3b-/--9--9----10---11b---------
D-----------------------7-7--4b-/-10-10---------------------
A----------------5/8----------------------------------------
E-----------------------------------------------------------

C                    F       G
Yea, when you're a cele---brity
           (no chord)
It's adios rea---lity
(Low E-14/-----4b--)
                   Am
No matter what you do
                    F
People think you're cool
                    G    F
just cuz' you're on TV
Em             G
Bein' a celebrity

E-----------------------------------------------------------
B-----------------------------------------------------------
G-----------------------------------------------------------
D--0h2-2---3-2-----------0h2-2---3-2-----------0h2-2---3-2--
A--------3-----3/5-----3-------3-----3/5-----3-------3------
E------------------3h5-------------------3h5----------------

E-----------------------------------------------------------
B-----------------------------------------------------------
G-----------------------------------------------------------
D-----------0h2-2---3-2-------------------------------------
A-3/5-----3-------3-----3/5------3--5b--5r--3---------------
E-----3h5-------------------3--5----------------------------

(Please comment and rate)
 Comments (click here to add a non-facebook comment)
looks pretty good
-sam399 | 1/16/2006
Good Job. Sounds good to me.
-Digilord22 | 2/12/2006
Home | FAQs | Privacy | Terms | Advertise | Contact
Top 100 Tab Sites