Give Kudos?
Are you sure you want to give kudos to Blackbyrd?

Add To Songbook?
Are you sure you want to add this song to your songbook?


2,629 bands | 34,421 songs
Search: Register FREE! | Login
Browse Songs:
Browse Bands:
Tool Panel
Discuss This Song

1 2 3 4 5





Brad Paisley - Brad Noodling Away (Tab)
Album: Brad Paisley- Unknown Album (2008)
Submitter: Blackbyrd (2) on 9/12/04 9 comments
Month Views: 29 | Total Views: 8,373
Moderator: Ray Terry | Report This Song?
Song Tools

Comment

Songbook

Kudos

Show Chords

Print

Here's the first part of a soundbite on which Brad Paisley is checking out his new 
signature amp, the Dr Z Rx. The soundbite can be found at www.drzamps.com





BRAD: (spoken) "Here's the way I set the amp when we first got it dialed up"

PHRASE #1:

------------------------------------------------------------------------------------
------------------------------------------------------------------------------------
---------5b(6)----------------------------------------------------------------------
---------------7-5------------------------------------------------------------------
-0-3p0-4-----------7p5p0-3-5-3b(4)-0------------------------------------------------
-------------------------------------/5~~~------------------------------------------

PHRASE #2:

------------------------------------------------------------------------------------
-----------------3-2-0--------------------------------------------------------------
-------------0h3-------2p0---0-2p0---2-0h1p0---0------------------------------------
-----------2---------------4-------2---------2---2---0------------------------------
-0-2p0-3h4-----------------------------------------2---1p0--------------------------
-----------------------------------------------------------3h4-0--------------------

--------0--------0------------------------------------------------------------------
-----------------------------2-0----------------------------(2)---------------------
----0h1------0h1-----2h3p2p0-2-0h1--------------------------(2)---------------------
---2--------2-------x--------------0h2p0---0-----------0h2~-------------------------
--2--------2-------x---------------------2---1p0------------------------------------
-0--------0--------------------------------------3h4-0------------------------------

PHRASE #3:

------------------------------------------------------------------------------------
---10-9-7---------------------------------------------------------------------------
------9-7---9-7h9p7-----------------------------------------------------------------
----------9---------9-7-----7-------------------------------------------------------
-0----------------------8h9---9-8-x---5-7-5-----------------------------------------
------------------------------------7-------7~~\------------------------------------

PHRASE #4:

a)                            b)    

--------------------------------------------------------0---------------------------
-----7-10--9~-7--7~-5------5----------3-2-0---------------3p2p0---------------------
---8-------8~----6~-----6~----------2-------/4~-4p2p0-----------2p1p0---------------
-9---------7~----5~---x-7~----2p0-4------------------h4---------------2p0-----------
--------------------------------------------------------------------------2p0-------
------------------------------------------------------------------------------3h4-0-

                                                                  |hold bend------|

------------------------------------------------------------------------------------
-----------------------------------------------------------------------5-7-5--------
---------------------------------------------------------------4-6b(8)-------(8)r6p-
-----------2---4b(6)-2-----2-------------------------------4-6----------------------
-------2-4---2---------4-2---4---4b(5)-4-2-0-----2-x-4h5h6--------------------------
-2-3-4-------------------------2-------------3h4------------------------------------

                         |hold bend---------|

---------------5-------------9-10---------------------------------------------------
----------------------------------12-10-------------9-----7~------------------------
-(6)p4s1---1s6--(13)r11b(13)------------(13)r11-6\--7b(9)-7~------------------------
-------------------------------------------------------------9~\-----5-7-5----------
-----------------------------------------------------------------5-7-------7-5-7--7-
---------------------------------------------------------------------------------0--

-----------------------------------------------------------------------------------0
---------10-9-7--------------------------------------------------------------------0
-------7--------9p7---9p7-----------2-----------------------------------0-2-0h1----1
---9-9--------------9-----9p7p0-3h4---4-2-----0h2p0-----------------0-----------2--2
-7----------------------------------------0-2-------0-----------------2-------------
------------------------------------------------------(5)r3-(5)r3-0---------------0-
 Comments (click here to add a non-facebook comment)
wocan u tab his whole session?
-silasa6 | 9/12/2004
Well done finding that soundclip of Brad
messing around.. its cool to hear stuff like
that. Glanced over your tab, spot on!!
Good work.
-axehappy | 9/12/2004
silasa6: working on it, check in after a week
or so.

Axe: you're right, it's really neat to hear
somebody play when the pressure is off, if
you know what I mean. Also, I think it's
great to study what Brad's doing when he's
by himself, partly just because it's cool,
but also because you can hear exactly what's
going on.
-Blackbyrd | 9/12/2004
cool thanks for the heads up!!!
keep them coming try to tab his solo on some of his mud on the tires cd. the song where some one goes," hit it brad" then he wail it ok? thanks alot

-silasa6 | 9/12/2004
I'm guessing the sound bite would've been here:

http://www.drzamps.com/mazerati.html

:-(
-danielcraggs | 9/18/2004
No, it's on Dr Z's homepage,

www.drzamps.com
-Blackbyrd | 9/23/2004
That's a cool clip. At a show in Raleigh last fall I snuck into the sound check and watched Brad & the band for almost an hour from the front row. It was the coolest to watch Brad noodle like he does in this clip, only he was 30 feet away and wearing sweats and Air Jordans. The band played a fast version of Highway 40 Blues that they need to play in concert! Anyone else seen him sound check?
-GuitarVB | 11/2/2004
I've seen him in sound check...He had a backwards hat, sweats, hoody, and tennis shoes when i saw him...lol....pretty cool

Nice tab, wish i had the ability to tab the rest
-mooman2679 | 1/20/2005
Someone needs to finish this !

-EP-Warlord | 3/11/2005
Home | FAQs | Privacy | Terms | Advertise | Contact
Top 100 Tab Sites