Give Kudos?
Are you sure you want to give kudos to sweethomealabam?

Add To Songbook?
Are you sure you want to add this song to your songbook?


2,632 bands | 34,462 songs
Search: Register FREE! | Login
Browse Songs:
Browse Bands:
Tool Panel
Discuss This Song

1 2 3 4 5





Brad Paisley - Brad Noodling Away(part 2) (Tab)
Album: Brad Paisley- Unknown Album (2008)
Submitter: sweethomealabam (5) on 3/10/06
Month Views: 29 | Total Views: 4,314
Moderator: Ray Terry | Report This Song?
Song Tools

Comment

Songbook

Kudos

Show Chords

Print

This is the second part when he talks for the 2nd time.
 I hope you like it and good luck! This soundbyte can 
be found at drzamps.com or mooman's site under downloads.
This tab goes until he talks for the 3rd time.

Enjoy!

===========================================================
b=bend                          h=hammer-on
x=dead note                     br=bend and release
\=slide down                    /=slide up
bh=bend and hold                r=release
brbr=bend and release 2x        bnb=behind-nut-bend
===========================================================

Guitarfan12 at aol.com

"This is more of the same tone, I really like this. It's uh, 
you can hear the speakers working, but it's still clean, 
but there's a little bit of hair on it."

E----------------------------------------------------------
B----5-8b-5------------------------------------------------
G-4-6-6------------------------------5-7-5b----------------
D------------7-5h6------------------5------7br\---5--------
A-----------x------5---------------------------5h7-5h7p5---
E----------x------7-7-6-5-3h4-0--5h7-----------------------

E----------------------------------------------------------
B----------------------------------------------------------
G-------------------------4-2br----------------------------
D-------------0---------4------4---------------------0-2---
A-3/5---5\3-3b----0----2-2------7b\-2-4-4brbr-0-2-3-4---3-4
E----3/5-------3bh-3r-0------------5-----------------------

E--------------------------9-------------------------------
B--3-x-2---2--2---5--10-----12-9------9-11-9---2/4\2-0-2-0-
G-2-----4b-4b-4-2/9----11bh-----11r-9-9-11-9---2/4\2-0-2-0-
D-------------------------------------------11\-----------2
A----------------------------------------------------------
E----------------------------------------------------------

E-------------------------0------4-2-3-2-------------------
B------------------------0-3b----5-3-3-3-------------------
G----1--------2b-------2b---------4-4---4-2-0bnb--2-0h1----
D-4/5-5\4-2--2--4h5p4-2-------------------------2-2-0--2---
A----------4b--------------------------------------------2-
E-------------------------------------------------------0--

E---------0
B---------0
G---------1
D---------2
A-5--2-----
E--3b-3b-0-

PLEASE COMMENT AND RATE
 Comments (click here to add a non-facebook comment)
Home | FAQs | Privacy | Terms | Advertise | Contact
Top 100 Tab Sites