Give Kudos?
Are you sure you want to give kudos to mooman2679?

Add To Songbook?
Are you sure you want to add this song to your songbook?


2,635 bands | 34,497 songs
Search: Register FREE! | Login
Browse Songs:
Browse Bands:
Tool Panel
Discuss This Song

1 2 3 4 5





Brad Paisley - Beat This Summer (Tab)
Album: Wheelhouse (2013)
Submitter: mooman2679 (4) on 9/5/13
Month Views: 25 | Total Views: 3,401
Moderator: Ray Terry | Report This Song?
Song Tools

Comment

Songbook

Kudos

Show Chords

Print

	-------------------------------------------------------------------------------
			     Beat This Summer - Brad Paisley
-------------------------------------------------------------------------------
Tabbed by: Tyler
E-mail:mooman2679 at gmail.com

Tuning: EADGBE

Lots of slide stuff mixed in with this.  This should be pretty close. I'm not that great with
a slide, but you should be able to get pretty close with this.  A ton of funky stuff in this
but a pretty fun song to play!

Intro: 

  Hold bend throughout
e|---------------------------------------------------------------------------|
B|---------------------------------------------------------------------------|
G|--8bh--8--8--8--8--8--8-10b-10b--10b-10b--10b-10b--10b-10b-----------------|
D|--11--11-11-11-11-11-11-11--11---11--11---11--11---11--11------------------|
A|---------------------------------------------------------------------------|
E|---------------------------------------------------------------------------|

First Guitar
Hold bend throughout
e|---------------------------------------------------------------------------|
B|o-------------------------------------------------------------------------o|
G|--8bh--8--8--8--8--8--8-10b-10b--10b-10b--10b-10b----------10b-10b---------|
D|--11--11-11-11-11-11-11-11--11---11--11---11--11-----------11--11----------|
A|o-------------------------------------------------------------------------o|
E|---------------------------------------------------------------------------|

Second Guitar
e|---------------------------------------------------------------------------|
B|----------------------------------------------------7p6--------------------|
G|--------------------------------------------------------8p6----------------|
D|--------------------------------------------------6----6---6\4-------------|
A|---------------------------------------------------------------------------|
E|---------------------------------------------------------------------------|

1st Solo

e|-----14-14------------------------------------------------------------------|
B|--------14-------------------14-11-----------------12-----------------------|
G|--13b---13br11-11-----11-13b-------13-11-13--11-13b--13b-11h13~p11----------|
D|-----------------13p11---------------------11-------------------------------|
A|----------------------------------------------------------------------------|
E|----------------------------------------------------------------------------|

e|-----------------------------------------------14--15--16--17--19bh-19br-19b-16b-------|
B|--12/14-12-----12--------------12p11-----14/16b--14--14--14--14-----------------19-19--|
G|--11/13-11--13b--13br11-11-13b------13p11----------------------------------------------|
D|------------------------13-------------------------------------------------------------|
A|---------------------------------------------------------------------------------------|
E|---------------------------------------------------------------------------------------|

e|--------------------------------14------------------------------------------|
B|---------11-11/14-14-14-14-11/14--9/11----------12--11----------------------|
G|------/11-----------------------------11\-----11----------------------------|
D|------------------------------------------8/11----11--11/13\----------------|
A|--12\-----------------------------------------------------------------------|
E|--12\-----------------------------------------------------------------------|

e|----------------------------------------------------------------------------|
B|------12-------------------9------------------------------------------------|
G|--6/11--11--11h13p11--11\8--11p10p8--8----------------8--11--13--13br-------|
D|--6/11----11--------13-------------11-11p9p8--11-----9-11--11--11-----------|
A|--------------------------------------------9-11--8/9-----------------------|
E|----------------------------------------------------------------------------|

2nd Solo

e|---------------11-11/13-13\11----------------------------13--13-14-16-18-18b-18b--------|
B|--14b-12-14-11-11-12/14-14\12----------------11-12-14/16b--16---------------------------|
G|------------------11/13-13\11h13p11--11-13-15-------------------------------------------|
D|------------------11/13-13\11------13---------------------------------------------------|
A|----------------------------------------------------------------------------------------|
E|----------------------------------------------------------------------------------------|

e|--18-16h18p16p14--14--|
B|----------------16----|
G|----------------------|
D|----------------------|
A|----------------------|
E|----------------------|

e|--14b-14-11h14p11--11-------11---------------------------------------------------------|
B|--- -------------14--14p11----14p11--11-11---------------------------------------------|
G|--------------------------13-------13---13br11--13p11--11------------------------------|
D|----------------------------------------------13-----13--13p11--11---------------------|
A|--------------------------------------------------------------13--13p11--11------------|
E|-----------------------------------------------------------------------14--14\---------|

e|---------------------------------------------------------------------------------------|
B|---------------------------------------------------------6-7-6-------------------------|
G|------6----6~--10--8b--8--8-8/11\10/11--11\8----8-----6/8-----8\6-6-8\6-6\4-6-6~-------|
D|---6/8-8/--8~--11--11-11-11-----------11----8/11-11--6-----------6-----6---4-----------|
A|---------------------------------------------------------------------------------------|
E|--9------------------------------------------------------------------------------------|

e|-------------------------------------------4-------------------------------16/18-18----|
B|------------------------4-6-6br-4-6br--6/7--7\6p4-4------9-11-11b--------16------------|
G|--6-6p4p3--3-3-3-4/6-6-6--------------------------6-6/11------------13/16--------------|
D|---6------4-------------------------------------------------------11-------------------|
A|---------------------------------------------------------------------------------------|
E|---------------------------------------------------------------------------------------|

e|-18-18b-18b-18b-18b-18prb-18prb-18pbr-18pbr-18pbr-14-------14--------------------------|
B|--------------------18prb-18prb-18pbr-18pbr-18pbr-14-------14-11--11-------------------|
G|----------------------------------------------------15p13-----13b-13br11-13------------|
D|---------------------------------------------------------16----------------------------|
A|---------------------------------------------------------------------------------------|
E|---------------------------------------------------------------------------------------|

e|--14/18~-------------------------------------------------------------------------------|
B|--14/18~---18~------------------4---5----5p4-------------------------------------------|
G|-----------18~------------------6bh-6br--6p4-6-----------------------------------------|
D|--------18--------------------4--------------6-----------------------------------------|
A|---------------------------4/6---------------------------------------------------------|
E|---------------14\----4/6-7------------------------------------------------------------|

************************************

| /   slide up
| \   slide down
| h   hammer-on
| p   pull-off
| ~   vibrato
| +   harmonic
| x   Mute note
| b   Bend
| pb  Pre-bend
| br  Bend release
| pbr Pre-bend release
| brb Bend release bend

************************************	
 Comments (click here to add a non-facebook comment)
Home | FAQs | Privacy | Terms | Advertise | Contact
Top 100 Tab Sites