Give Kudos?
Are you sure you want to give kudos to axehappy?

Add To Songbook?
Are you sure you want to add this song to your songbook?


2,629 bands | 34,421 songs
Search: Register FREE! | Login
Browse Songs:
Browse Bands:
Tool Panel
Discuss This Song

1 2 3 4 5





Brad Paisley - All You Really Need Is Love (Solo)
Album: Part II (2001)
Submitter: axehappy (116) on 9/6/02 1 comment
Month Views: 18 | Total Views: 5,974
Moderator: Ray Terry | Report This Song?
Song Tools

Comment

Songbook

Kudos

Show Chords

Print

Brad Paisley  -  All You Really Need Is Love (solo)

By axehappy  -  axehappy at countrytabs.com


**************************************************************************************

bh   =   bend & hold                                r   =   release

pbr  =   pre-bend & release                         \   =   slide down

p    =   pulloff                                    /   =   slide up

b    =   bend                                       h   =   hammer-on

x    =   dead note                                  ~   =   vibrato

**************************************************************************************



E------15--14----10-10--------------------------------------------------------
B------------------8--8------8-7----------------------------------------------
G--14bh--14--14r-------10pbr--0-7pbr------------0----------------3h4\---------
D-----------------------------------8\7p5-----10-3b-0-5-0--------3--\---------
A----------------------------------------7-8/9-----5-----1p0------------------
D-----------------------------------------------------------5-3/5----0-0-0-3b-


E------------------------------------------------------|
B------------------------------------5-x-6-x-7-x-8~~---|
G----------5-7b-7-5-----7-x-5-7-5-7-x------------------|
D-----0-5/7-7------7-----------7-----------------------|
A--3-0-3-------------3/5-------------------------------|
D------------------------------------------------------|



 Comments (click here to add a non-facebook comment)
Awesome
-zunie | 12/12/2005
Home | FAQs | Privacy | Terms | Advertise | Contact
Top 100 Tab Sites