Give Kudos?
Are you sure you want to give kudos to WildCard76?

Add To Songbook?
Are you sure you want to add this song to your songbook?


2,629 bands | 34,421 songs
Search: Register FREE! | Login
Browse Songs:
Browse Bands:
Tool Panel
Discuss This Song

1 2 3 4 5





Brad Paisley - Alcohol (Lead)
Album: TIme Well Wasted (2005)
Submitter: WildCard76 (160) on 8/7/05 8 comments
Month Views: 33 | Total Views: 21,776
Moderator: Ray Terry | Report This Song?
Song Tools

Comment

Songbook

Kudos

Show Chords

Print

ALCOHOL
Brad Paisley
Album: Time Well Wasted
2005, Arista Records


--this lick begins after the first chorus--

E---------------------------------------------------------------------------------
B---------------------------------------------------------------------------------
G---------------------------------------------------------------------------------
D---------------------------------------------------------------------------------
A---2----b4-(4)-r4---------------------------2---2-2-b4-(4)-r4--------------------
E------2-----------b2-(2)--0----------4-4-4---------------------b2-(2)---0---4----



....this is my take on the INTRO.....



E-------------------------------------------------------------------0----
B-------------------------------------------------------------------3----
G---4----------------------------4----------------------------0h1--------
D---4----------------------------4---------------------------------------
A---2------4b-(4)-4r-------------2-----2-x-4b-(4)-4r---------------------
E--------2-------------2br-0--------2-----------------2br-0--------------
 Comments (click here to add a non-facebook comment)
Good job! This is exactly how it is listed in the September issue of Guitarone magazine.
-herbsprouse73 | 8/14/2005
Is that the magazine that replaced CountryGuitar?
-WildCard76 | 8/14/2005
Guitarone magazine is just a regular guitar mag. I wish there was a country guitar mag!!
-herbsprouse73 | 10/10/2005
Hey im new to tab playing when there is like 3 places on the tab like in this one 4 4 2 how do i play all those at once i don't totally understand this. help please!?
-Guitarplayer46 | 10/30/2005
to play the 442 chord use your pointer finger on the second fret, and your ring and pinkie for the 4th fret on each respective string. then just strum those strings all at once.
-Brillo | 10/31/2005
that is a b5 power chord and is played the way the other guy said its very simple
-hanginchad | 12/10/2005
Can someone tab the outro that Brad plays. Thanks
-kfr12ap | 12/18/2005
When the tab says to release the string after a bend, do you release the bend and play the string open, or just bend it back to its original position?
-lollypop25 | 3/7/2011
Home | FAQs | Privacy | Terms | Advertise | Contact
Top 100 Tab Sites