Give Kudos?
Are you sure you want to give kudos to livewire8?

Add To Songbook?
Are you sure you want to add this song to your songbook?


2,629 bands | 34,421 songs
Search: Register FREE! | Login
Browse Songs:
Browse Bands:
Tool Panel
Discuss This Song

1 2 3 4 5





Brad Paisley - Alcohol (Ending) (Tab)
Album: TIme Well Wasted (2005)
Submitter: livewire8 (3) on 7/6/11
Month Views: 34 | Total Views: 3,124
Moderator: Ray Terry | Report This Song?
Song Tools

Comment

Songbook

Kudos

Show Chords

Print

Brad Paisley- Alcohol

b=bend
r=release
h=hammer on
p=pull off
v=vibrato
s=slide
/=slide up
\=slide down

OUTRO:
e--------------------0----------------------------
B--------------------0----------------------------
G-------------------------------------------------
D----------------------6br---7-5b-----------------
A-2-------2-4bbr-----------7------7-5-------------
E---2-2h4--------2br------------------7-6-5-3-0---

e--------------------------------------4----------
B----------------------------------------7--------
G----------------6b-6-4-6bvrp4h6-6brbr-----6b-----
D---------------------------------------------0-6-
A-4s5-4-2v-2v-2/----------------------------------
E-------------------------------------------------

e-----------------7----------------------7--------
B-------------------7----------------------7-10p7-
G-6brp4---4v-6-9b-----9brp7p0h4-6brp4-9b----------
D-------6-----------------------------------------
A-------------------------------------------------
E-------------------------------------------------

e-------------------------------------------------
B---7---------------------------------------------
G-9---10p7------9p7-------------------------------
D-------------9-----9p7p0---9---7-----------------
A----------11-------------9---9---7-0---5-7brp5p0-
E-------------------------------------7-----------

e----------------------------------10s12p10s14----
B---------------------10h12-10b-12----------------
G---------------4v-4/-----------------------------
D-------------------------------------------------
A-7brp5p0-----------------------------------------
E---------7v-7\-----------------------------------

e-------------------------------------------------
B-17b-12----12-14b-0-1--------14b-12----12-14b\---
G--------13------------3-3s6/--------13-----------
D-------------------------------------------------
A-------------------------------------------------
E-------------------------------------------------

e-----------------------------------19-21b-19-18--
B-16-19-16h19-----19-21-21brv-19-21---------------
G-------------21b---------------------------------
D-------------------------------------------------
A-------------------------------------------------
E-------------------------------------------------

e-16----------------------------------------------
B----19-17-16-14----12----------12----------9-----
G----------------11----13-11-------13-11----9-----
D----------------------------13----------12---11--
A-------------------------------------------------
E-------------------------------------------------

e-------------------------------------------------
B-------------------------------------7---------7-
G-8---------------------------------7---9brp7-----
D---11-9------9v----------9-12b-9-7-----------9---
A--------11-9----11\-9h11-------------------------
E-------------------------------------------------

e-------------------------------------------------
B-------7-10---10---10---10---10---10---9--9------
G-7v-9b---9b---9b---9b---9b---9b---9b---9b-9br----
D------------7----7----7----7----7----7-----------
A-------------------------------------------------
E-------------------------------------------------

e-------------------------------------------------
B-----------------10---10---10---10---10---10-----
G-------7br-7-----9b---9b---9b---9b---9b---9b-----
D-------------9p7----7----7----7----7----7----7---
A-9-9s7-------------------------------------------
E-------------------------------------------------

e-------------------------------------------------
B-9--9--9------------7----------------------------
G-9b-9b-9b---9-9br-9---10-------------------------
D-------------------------9p0---------------------
A----------9--------------------------------------
E-------------------------------------------------
 Comments (click here to add a non-facebook comment)
Home | FAQs | Privacy | Terms | Advertise | Contact
Top 100 Tab Sites