Give Kudos?
Are you sure you want to give kudos to Ryan15?

Add To Songbook?
Are you sure you want to add this song to your songbook?


2,629 bands | 34,421 songs
Search: Register FREE! | Login
Browse Songs:
Browse Bands:
Tool Panel
Discuss This Song

1 2 3 4 5





Brad Paisley - Ain't Nothin Like (Tab)
Album: Mud on the Tires (2003)
Submitter: Ryan15 (0) on 3/28/05 1 comment
Month Views: 37 | Total Views: 12,798
Moderator: Ray Terry | Report This Song?
Song Tools

Comment

Songbook

Kudos

Show Chords

Print

h=hammer on


Acoustic part:

E-----------------------------------------
B-------------1-1-------------------------
G---------0---2-2-0-------------------0---
D----0h2--------------0h2--0---0---0h2----
A--3--------------3-3--------3---3--------
E-----------------------------------------


E---------------------------------------
B-------1----1--------------------------
G--0-0h2-2---0------------------0-------
D-----------------0h2--0----------------
A---------------3-----------0h2---------
E-------------------------3-------------


electric guitar part
E-----------------------------------------
B-----------------------------------------
G--------0---2-2-0---------------------0--
D----0h2-------------0h2--0---0----0h2----
A--3---------------3--------3---3---------
E-----------------------------------------


E-----------------------------------------
B---------1-------------------------------
G--0--0h2---2---0-------------------------
D-------------------0h2--0----------------
A-----------------3-----------2--3--------
E--------------------------3--------------
 Comments (click here to add a non-facebook comment)
Isn't this the same thing as Shantel's tab?
-mooman2679 | 3/28/2005
Home | FAQs | Privacy | Terms | Advertise | Contact
Top 100 Tab Sites