Give Kudos?
Are you sure you want to give kudos to rockstarbiddle1?

Add To Songbook?
Are you sure you want to add this song to your songbook?


2,635 bands | 34,497 songs
Search: Register FREE! | Login
Browse Songs:
Browse Bands:
Tool Panel
Discuss This Song

1 2 3 4 5





Brad Paisley - Ain't Nothin' Like 2 (Intro)
Album: Mud on the Tires (2003)
Submitter: rockstarbiddle1 (0) on 8/1/03 4 comments
Month Views: 19 | Total Views: 5,245
Moderator: Ray Terry | Report This Song?
Song Tools

Comment

Songbook

Kudos

Show Chords

Print

This is the tab to Ainít Nothiní Like 

By: Brad Paisley

------------------------------------------------------------
------------------------------------------------------------
------------0----2---2---0----------------0-----------------
--------0h2-----------------0h2---0-0-0h2-------------------
----3------------------------------3-3----------------------
------------------------------------------------------------

------------------------------------------------------------
--------1------------------------------------------------
----0h2---2-0------------------0----------------------------
------------------0h2-0-------------------------------------
--------------------------0h2h3-----------------------------
------------------------------------------------------------

------------------------------------------------------------
------------------------------------------------------------
------------0--2--2---0---------------------0---------------
--------0h2--------------0h2--0---0--0h2--------------------
----3----------------------------3--3-----------------------
------------------------------------------------------------

------------------------------------------------------------
--------1------------------------------------------------
----0h2---2-0-----------------------------------------------
------------------0h2-0-------------------------------------
--------------------------0---2---3-------------------------
------------------------------------------------------------
 Comments (click here to add a non-facebook comment)
PERFECT!!!
-jev128 | 9/30/2003
This one is correct. Great Job!
-butch_ryan | 7/5/2004
nicely done
-bmartbiatch | 2/6/2005
Gotta Love Brad , thanx

-KCacb | 2/18/2005
Home | FAQs | Privacy | Terms | Advertise | Contact
Top 100 Tab Sites