Give Kudos?
Are you sure you want to give kudos to Niki?

Add To Songbook?
Are you sure you want to add this song to your songbook?


2,725 bands | 35,155 songs
Search: Register FREE! | Login
Browse Songs:
Browse Bands:
Tool Panel
Discuss This Song

1 2 3 4 5



Mavericks - All You Ever Do Is Bring Me Down (Lead)
Album: The Definitive Collection (2004)
Submitter: Niki (0) on 1/19/15
Month Views: 196 | Total Views: 16,648
Moderator: Ray Terry | Report This Song?
Song Tools

Comment

Songbook

Kudos

Show Chords

Print

first solo played on baritone guitar and last 5 notes should play an octave lower

------------------------------------------------------------------------------------------------ 
------------------------------------------------------------------------------------------------ 
------------------------------------------------------------------------------------------------ 
---------------------------------------------------2-4b-4br-2---------------------2-2h4-2------- 
----------0------0--0h2-0--------------2-4-2-2-2-4------------4-2-4b-4br-2---2-0----------2br-0- 
-0-2-0-4b---0-4b----------2br2-0-0-2/4-------------------------------------4-------------------- 








standard guitar solo

--------------------------------------9-12------------------12-------10-9-8-7----- 
-----------------------------10-x-12b------12br-10----------------------------0--- 
--------------------9-x-9/11-----------------------11-11/13----x-11-x---9-8-7-7--- 
-----------7-x-9/11--------------------------------------------------------------- 
-------7/9------------------------------------------------------------------------ 
---------------------------------------------------------------------------------- 



-------------12---------10-----9-8-5h7p5-----5----5---------5------------- 
-----------------------------------------7-5---8b-----------5-7--4/5-4/5-- 
--9-11h12-13----9-10/11----7h8-9-8------------------7brp5h6---6--5/6-5/6-- 
-------------------------------------------------------------------------- 
-------------------------------------------------------------------------- 
--------------------------------------------------------------------------
 Comments (click here to add a non-facebook comment)
Home | FAQs | Privacy | Terms | Advertise | Contact
Top 100 Tab Sites