Give Kudos?
Are you sure you want to give kudos to guitar warrior?

Add To Songbook?
Are you sure you want to add this song to your songbook?


2,725 bands | 35,155 songs
Search: Register FREE! | Login
Browse Songs:
Browse Bands:
Tool Panel
Discuss This Song

1 2 3 4 5



Mavericks - Losin' Side Of Me (Solo)
Album: What a Crying Shame (1994)
Submitter: guitar warrior (0) on 2/11/09
Month Views: 26 | Total Views: 3,868
Moderator: Ray Terry | Report This Song?
Song Tools

Comment

Songbook

Kudos

Show Chords

Print

This is the solo to Losin Side of Me by The Mavericks.  I broke it into 4 sections to make it 
easier to learn.  Enjoy


  Gtr I
                                                                                             PM 
|-16-16-16--\14-14-14-14--\12-12-12-12--\10-10-10-10---\9--9--9--/11-11-----------------------------|
|-17-17-17--\15-15-15-15--\14-14-14-14--\12-12-12-12--\10-10-10--/12-12-14-14-12-12-\10-10-9-0-7b7--|
|-----------------------------------------------------------------------14-14-13-13-\11-11-9-0-7b7--|
|--------------------------------------------------------------------------------------------------9|
|---------------------------------------------------------------------------------------------------|
|---------------------------------------------------------------------------------------------------|


|-------0-------0-------0--------------------------------0----|
|-0-(0)-3-0-(0)-3-0-(0)-3--------------------------------0----|
|-2-/4----2-/4----2-/4----4--3p2p0----------------------------|
|----------------------------------2-0-2-0--------------------|
|------------------------------------------2p1p0--------------|
|------------------------------------------------3b3.5-0------|


                                                                            ~~
|-------12-------12-------12-------12-------12--15-12----------------------------|
|-12----12-12----12-12----12-12----12-12----12--14-12-14b16r12----14-12----------|
|-14b16----14b16----14b16----14b16----14b16-----------14----12----14-12----------|
|--------------------------------------------------------------14-------14-14----|
|--------------------------------------------------------------------------------|
|--------------------------------------------------------------------------------|


     PM                   PM   PM
|-11-0-10--\9------------------------0----0-(0)--0---------------------------------------|
|-12-0-11-\10----------12-0-11-0-10--8b10-3-/5-----3p2p0---------------------------------|
|----------------------13-0-12-0-11----------------------3p2p0---------------------------|
|-------------11-12-13-----------------------------------------2p1p0---------------------|
|--------------------------------------------------------------------2p1p0-2p1p0---------|
|--------------------------------------------------------------------------------3b3.5-0-|
 Comments (click here to add a non-facebook comment)
Home | FAQs | Privacy | Terms | Advertise | Contact
Top 100 Tab Sites